The Kids - Ensom                        By October




Intro:
 F         G         F         G
|--7h8p7-----7h8p7-----7h8p7-----------------------|
|--------8---------8---------8----8/10\8-----------|
|----------------------------------------7h9p7-----|
|----------------------------------------------7\--|
|--------------------------------------------------|
|--------------------------------------------------|


1. Vers:
Am
Hun sto en time foran speilet i dag
G
Hun pøste sminke på - lag for lag
F
Hun vet han kommer når klokka er 9
G
For ham, ville hun gjøre seg fin


|-------------------|
|--8/10\8-----------|
|---------7h9p7-----|
|---------------7\--|
|-------------------|
|-------------------|


2. Vers
Am
Men hun ble sittende aleine hver kveld
G
Nå prøver hun å trøste seg selv
F
Kanskje får hun sjangsen en gang
G
For hun vet at livet er langt   -   aaå


Refreng:
F
Ensom - så fælt å være
C                       
Ensom - så vondt å være
G        F           Am    G
Hjemme - Hver lørdagskveld

F
Ensom - så fælt å være
C                       
Ensom - så vondt å være
G        F           Am    
Hjemme - Hver lørdagskveld


Mellomspill:
 Am         F         F          G
|---7h8p7-----7h8p7-----7h8p7-----------------------|
|---------8---------8---------8----8/10\8-----------|
|-----------------------------------------7h9p7-----|
|-----------------------------------------------7\--|
|---------------------------------------------------|
|---------------------------------------------------|


3. Vers
Am
Hun gråter stille, hun vil glemme sin venn
G
Men bildet av ham kommer alltid igjen
F
Er det no'n andre som kysser ham nå?
G
Hva galt har hun gjort? Hun kan ikke forstå


Refreng:
F
Ensom - så fælt å være
C                       
Ensom - så vondt å være
G        F           Am    G
Hjemme - Hver lørdagskveld

F
Ensom - så fælt å være
C                       
Ensom - så vondt å være
G        F               
Hjemme - Hver lørdagskveld


Mellomspill: 
A#  G#  A#  G  C  D  ?


Refreng:
F
Ensom - så fælt å være
C                       
Ensom - så vondt å være
G        F               
Hjemme - Hver lørdagskveld


Mellomspill:
A#  G#  A#  G  C  D  ?


Solo:
G#  Gm   Fm   Cm  ?

Andre versjoner:

Kommentarer:

Dette feltet skal ikke fylles ut:
Lagre i egne samlinger
Vurderinger