Tyven tyven

av Anonym 10/09-2007
DumDum Boys - Tyven Tyven
=========================

---

Intro:

[D] [A]
e-------------------------------------------------|
B----3------------------------2-------------------|
G----2------------------------2--------2----------|
D-0--------2h4--2--0---2------2----2h4-----0------|
A----------------------------------------4--------|
E-------------------------------------------------|

Verse:

[D] [A]
e-------------------------------------------------|
B----3------------------------2-------------------|
G----2------------------------2--------2----------|
D-0--------2h4--2--0---2------2----2h4-----0------|
A----------------------------------------4--------|
E-------------------------------------------------|

[D] [A]
e------------------------------------------------|
B-------3------------------------2---------------|
G-------2------------------------2--------2------|
D----0--------2h4--2--0---2------2----2h4-----0--|
A-------------------------------------------4----|
E-3----------------------------------------------|

Chorus 1:
                          A
e-------------------------------------------------|
B-----------3-------------2-----------------------|
G-----------2-------------2-----------------------|
D-0--2--4---4-------------2-----------------------|
A-------------------------0-----------------------|
E-------------------------------------------------|

Chorus 2:

e-------------------------------------------------|
B----------3-------------------3------------------|
G----------2-------------------2------------------|
D-0--2--4--4------------2--4---4------------------|
A--------------------0----------------------------|
E-------------------------------------------------|

                     G
e-------------------------------------------------|
B-------------3-----------------------------------|
G-------------2------0----------------------------|
D-------2--4--4------0----------------------------|
A-0--0---------------2----------------------------|
E--------------------3----------------------------|

Interlude 1:

e-------------------------------------------------|
B-------------------------------------------------|
G----2------------------2-----------2-------------|
D----0---2h4--2--0------2------2h4--------0-------|
A-----------------------0--------------4----------|
E-3-----------------------------------------------|

e--------------------------------------------------|
B-------3------------------------------------------|
G-------2----------------2-----------2-------------|
D----0--0----2h4--2--0---2------2h4-----4--2-----0-|
A------------------------0---0----------------4----|
E-3------------------------------------------------|

Interlude 2:

e--------------------------------------------------|
B-------3------------------------------------------|
G-------2----------------2-----------2-------------|
D----0--0----2h4--2--0---2------2h4-----4--2-----0-|
A------------------------0---0----------------4----|
E-3------------------------------------------------|

e-------------------------------------------------|
B-------3-----------------------------------------|
G-------2----------------2-----------2------------|
D----0--0----2h4--2--0---2------2h4----2h4--2---0-|
A------------------------0---0----------------4---|
E-3-----------------------------------------------|


This is the setup of the entire song:

- Intro (repeat twice)
- Verse
- Chorus 1
- Verse
- Chorus 2
- Interlude 1
- Verse
- Chorus 2
- Interlude 2
- Verse
- Chorus 2 (repeat until song fades)

Andre versjoner:

Kommentarer:

Dette feltet skal ikke fylles ut:
Lagre i egne samlinger
Vurderinger