Ræga Råkkers TAB

#1
Hei!

Holder på med en guitar pro-fil av Ræga Råkkers slager "Satanist", men sliter litt med refrenget.

Hvis noen kunne hjulpet meg med å finne ut av refrenget så kommer det snart en flott Guitar Pro opp

Trenger også hjelp til soloen, hvis noen gidder å se på den :whistle:


Her er notene til sangen (fått i fra gitaristen i bandet, så jeg er ganske sikker på at de stemmer), men klarer ikke å finne ut hvordan jeg skal få det til å stemme. :huh:

vers
||: Gm | Gm | D# | D# |
| C | D | Gm | Gm :||

refr
| B F | Gm | C B | F |
| F F | B Eb ||: B F | G Eb :||


Om noen kan hjelpe meg så hadde det vært supert!
(PM meg for mp3 hvis du vil prøve, men ikke har sangen fra før)

-October
#2
Verset tror jeg er riktig, bortsett fra at C'en skal være en Cm tror jeg.

Refrenge tror jeg er slik:

|: B F | Gm | Cm B | F | Dm F | Gm Eb ||: B F | Gm Eb :||


Gidder ikke prøve på soloen i kveld, kanskje i morgen.
#3
   B  F   G   Cm B   F   Dm F   Gm Eb   B F   Gm Eb
|-------|---|------|---|------|-------|-----|------
|-------|---|------|---|------|-------|-----|------
|-------|---|------|---|------|-------|-----|------
|--4----|---|-5--4-|---|-7----|----8--|-----|----8-
|--2--3-|-5-|-3--2-|-3-|-5--3-|-5--6--|-9-3-|-5--6- 
|-----1-|-3-|------|-1-|----1-|-3-----|-7-1-|-3----

Slik som dette?

Eller er det bedre å stemme den ett hakk ned, og spille Eb på mørkeste strengen? På sangen høres det ut som om det spilles som taben over.

Var omtrent slik jeg hadde tenkt det fra før av også, men med litt endringer nå bare.

Flott arbeid! Takk :wink:

Og om du hadde gidda å kikka litt på soloen også, slik at jeg har litt peiling på hvor den går og slikt, så kan jeg sikkert få til å tabbe den og slikt selv

Edit: Taben ble litt mongo her inne, men bare kopier den inn i Notepad.

Sist redigert av: October 13/03-2007 15:24

#4
Du kan bruke [ tab ] [/ tab ] rundt tabs.

men slik skal det være tror jeg:
   Bb F   G   Cm Bb  F   Dm F   Gm Eb   BbF   Gm Eb
|-------|---|------|---|------|-------|-----|------
|-------|---|------|---|------|-------|-----|------
|-------|---|------|---|------|-------|-----|------
|--3----|---|-5--3-|---|-7----|----8--|-----|----8-
|--1--3-|-5-|-3--1-|-3-|-5--3-|-5--6--|-8-3-|-5--6- 
|-----1-|-3-|------|-1-|----1-|-3-----|-6-1-|-3----


B'en skal være en Bb.
H på norsk = B på engelsk
B på norsk = Bb på engelsk

Kunne kanskje vært greit å stemme ned ett hakk så man slipper å flytte så langt mellom grepene, men det bestemmer du selv.

Kan se om jeg klare soloen senere i kveld.
#5
Åja! Er det forskjell på d og! Trodde H og B var det samme, selv med "b" bak og

Nå hørtes det mye mer riktig ut ja!

Edit: Men det er fremdeles noe jeg synes høres litt rart ut.. :unsure:

Sist redigert av: October 13/03-2007 16:34

#6
Har prøvd meg litt på soloen: Satanist solo

Den er sikkert ikke helt 100% riktig så du får finpusse litt på den selv, det er ett par takter som mangler også.
#7
Ooh, flottings!

Får se på det når jeg kommer hjem fra skolen