Vamp - Hallo-Adjø

#1
Noen som kan hjelpe meg med tab til denne? er mulig den er i sangboken Ei med alt. Samme hvilken tab det er... men jeg er ikke ute etter chords. På forhånd TAKK!
#2
Hobbymusiker
nordrott
Hei! Jeg har boken "Ei med alt" kjempebra bok som anbefales. Men, der er ikke tabs, kun noter med akkorder over! Men er ikke gitaren der egentlig bare chords med variasjoner, + det lille riffet på begynnelsen?
#3
Jo, mest sannsynlig så er det nok det. Men kommer an på hvor fingerspillbasert sangen er da.
#4
Har prøvd å tabbe den første soloen:
|------------7-7-7--0-7/8-7h8p7-----10-8-7h8p7-------------------------|
|-----7-8-10------------------10---------------10-8-7-8---10---7p8---8-|
|---9---------------------------------------------------9--------------|
|-9----------------------------------------------------------------9---|
|----------------------------------------------------------------------|
|----------------------------------------------------------------------|

|--------------------------5--7--5h7p7----------------7h8/10---12~-----|
|-8p7\5--------------5-7/8-------------8-7-5---7-8-10---------x--------|
|-------7p5\4h5--5-7-----------------------------------------x---------|
|----------------------------------------------------------------------|
|----------------------------------------------------------------------|
|----------------------------------------------------------------------|

|---10-10---10p7-------------------------------------------------------|
|--x--------- ----8--10-8--7h8p7---------------------------------------|
|-x-----------------------------7--------------------------------------|
|----------------------------------------------------------------------|
|----------------------------------------------------------------------|
|----------------------------------------------------------------------|


Det er to lignende soloer til i sangen, men tror ikke jeg klarer å tabbe dem, så noen andre får prøve.