Glade jul

av Pitmairen 30/12-2008
|--0--2--0---------0--2--0---------7--7--4--4--5--5--0------------
|-----------2---------------2-------------------------------------
|-----------------------------------------------------------------
|-----------------------------------------------------------------
|--0--------0------0--------0------------------0-----0------------
|----------------------------------0-----0------------------------



|--2--2--5--4--2---0--2--0--------2--2--5--4--2--0---0--2--0------
|---------------------------2---------------------------------2---
|-----------------------------------------------------------------
|--0-----0------------------------0-----0-------------------------
|------------------0--------0------------------------0--------0---
|-----------------------------------------------------------------



|--7--7--7--10--7--------9----5--0----0---------------5-----------
|-----------------9--10------------2-----3-0----------2-----------
|----------------------------------------------2------2-----------
|-----------------------------------------------------2-----------
|--------------------0---0----0----------------0------0-----------
|--0--------0-------------------------0---------------------------

Andre versjoner:

Kommentarer:

Dette feltet skal ikke fylles ut:
  • Istea1 (Gjest)
    Den var lett og spille
  • Henrik (Gjest)
    Flott sang.
  • Jo (Gjest)
    Helt super!
  • Iselin (Gjest)
    Bra
  • Bjørn pål (Gjest)
    Hvis jeg hadde vert en gammel mann hadde jeg spist ribbe
  • Matter'n P (Gjest)
    Sykt bra tab spiller den ofte
  • Se alle kommentarer
Lagre i egne samlinger
Vurderinger