One day you'll dance for me New York city

av Lisulf 17/05-2009
  Dm              Intro:
e|----------1----------------------1---------|
B|-------3-----3----------------3-----3------|
G|----2-----------2--------0h2-----------2---|
D|-0--------------------0--------------------|
A|-------------------------------------------|
E|-------------------------------------------|

   C
e|-------------------------------------------|
B|-----------1-------------------1-----------|
G|--------0-----0-------------0-----0--------|
D|-----2-----------2-------2-----------2-----|
A|--3-------------------3--------------------|
E|-------------------------------------------|
 |                                           |
-----------------------------------------------
   F
e|--------------------|
B|--------------------|
G|-----------2--------|
D|--------3-----3-----|
A|-----3-----------3--|
E|--1-----------------|

[Dm]dazed and [C]confused
but most [Dm]of all battered and [C]bruised
I[Dm] came with [C]a dream
shared by [Dm]more than a few it se[C]ems

[F]fall asleep [C]now, new york [Dm]city

[F]I need to res[C]t my e[Dm]yes
[F]someday i'll [C]rise, new york [Dm]city
[F]one day you'll [C]dance for[F] me

[Dm]fall [C]back
[Dm]it's been a long day but we're still [C]on track
[Dm]embrace the fierce[C] reality
[Dm]or wither away in sentimen[C]tality

[F]fall asleep [C]now, new york [Dm]city

[F]I need to res[C]t my e[Dm]yes
[F]someday i'll [C]rise, new york [Dm]city
[F]one day you'll [C]dance for[F] me

Kommentarer:

Dette feltet skal ikke fylles ut:
  • Andreas (Gjest)
    Refrenget er
    F Am Dm
    F Am Dm Bb
    F Am Dm
    F Am Bb

    Outroen er
    Bm D G x4
    F Am Dm
    F Am Dm Bb
  • Steffen (Gjest)
    Jeg synes det høres ut som Am og ikke C på refrenget
  • malectra
    Hei!
    Er det noen som har tabs til saksofonintroen til denne sangen?
Lagre i egne samlinger
Vurderinger