Mørkemann

av Sundefan 19/03-2010
[F#m] [A] [Bm] [D]
|--------------------------------------------------------|
|--------------------------------------------------------|
|------------------------------------------------2-2-----|
|-2-4-4s6-6b7r6-4-2------------------------------0-0-----|
|--------------------0-4-2-0-2--2-4-4h5p4-2-0-----------|
|--------------------------------------------------------|
[F#m] [A] [Bm]
|--------------------------------------------------------|
|----------------------------------2---------------------|
|---------------------------2-4b5---2--4-----------------|
|-2-4-4s6-6b7r6-4-2-----2-4--------------4--2------------|
|-------------------0-4-----------------------4-2p0------|
|---------------------------------------------------2----|


[Bm]Folk era e[F#m]nten A ell B
Når det g[Bm]jeld meg vil det passe med [D]C
Det dei ka[F#m]lle gull, det sm[A]aka meir som [Bm]ull
          F#m
hvis du æ full tå råkkenroll,
så eru av[Bm]lyst fyri t[D]olv
Å ha g[F#m]ull i munn æ be[C#m]rre skjire tu[Bm]ll


Ref
Eg æ ein fes[A]tglad mørkemann som lyse gr[Bm]ihuge i ba[D]nn
Eg [F#m]kan kji forstå at du s[A]et vekkjinge [Bm]på
Då æ dy[A]na morgovarm og, jeg vil  s[Bm]ova på min arm
når h[F#m]anin gjel,s[A]øv eg godt kan du t[Bm]ru
for eg h[F#m]a 'kji tenkt me te [A]stå upp k[D]lukka [A]sju


       F#m
det va ein sein og fuktig fest
der trivs [Bm]eg aller aller be[D]st
om dei [F#m]are gå,so si[A]t eg atte ei [Bm]stund
        F#m
Eg æ lys vakjin frisk og fin
og full tå g[Bm]od adrenali[D]n
når eg h[F¤m]ånlg visa f[C#m]ingern te jon blun[Bm]d


Ref


Bm7
Eg ligg i koma på magen,
F#m
når dei are jobbe om dagen
[Bm7]Eg  skulle kanskji prøvd å endre st[E]il?
Bm7
Men støtt så blir det berre med tanken
F#m
Det æ so sikkert som banken
[Bm]som oftast går eg te se[A]ngs når sole r[E]enn


Ref


Instrumental


Då æ dyna morg[A]ovarm og eg vil s[Bm]ova på min arm
når han[F#]en gjel [A]søv eg godt kan du[Bm] tru
for eg [F#m]ha 'kji tenkt me t[A]e stå upp k[D]lukka s[A]ju
       F#m               ?          ?      ?

Nei eg [F#m]ha 'kji tenkt me t[A]e stå upp k[D]lukka s[A]ju

Andre versjoner:

Kommentarer:

Dette feltet skal ikke fylles ut:
  • LarsHåvardHaugen_Fan (Gjest)
    Kan du lage en tab på soloen også? Kjempefint med tab på intro (nå har jeg lært den også) men gjerne også solo
  • Sundefan
    Kan stemme det. Har ikkje sett så mye på akkordene under introen men eg skal fikse det. Takk for tipset
  • Nybegynner
    Det er vel ikke F#m over hele introen?
    Noe sånt?

        F#m           A          Bm            D
    |--------------------------------------------------------|
    |--------------------------------------------------------|
    |------------------------------------------------2-2-----|
    |-2-4-4s6-6b7r6-4-2------------------------------0-0-----|
    |--------------------0-4-2-0-2--2-4-4h5p4-2-0-----------|
    |--------------------------------------------------------|
        F#m          A            Bm
    |--------------------------------------------------------|
    |----------------------------------2---------------------|
    |---------------------------2-4b5---2--4-----------------|
    |-2-4-4s6-6b7r6-4-2-----2-4--------------4--2------------|
    |-------------------0-4-----------------------4-2p0------|
    |---------------------------------------------------2----|
    
    
  • Telecasterlover
    Veldig bra. Tusen Takk, fint at noen la ut introen til denne

Lagre i egne samlinger
Vurderinger