En Stjerne Skinner I Natt

av GitarSondre 04/12-2010
Her er en annen versjon av "En stjerne skinner i natt". Dette er en litt
enklere versjon, der du slipper barre-grep. Du velger selv om du vil 
spille fingerspill eller bare bruke akkordene. Håper du liker den!


   C              F             G             C             F 
   Nå er den hel  -  li ge ti    -      me                vi står i stje-
e|--------0----|--------1----|--------3----|--------0----|--------1----|
B|--------1----|--------1----|--------0----|--------1----|--------1----|
G|-------------|-----2-----2-|-----0-----0-|-----0-----0-|-----2-----2-|
D|-----0-----0-|--3----------|-------------|-------------|--3----------|
A|--3----------|-------------|-------------|--3----------|-------------|
E|-------------|-------------|--3----------|-------------|-------------|

    C             G                           C             F
    -rne   skinn                            og hør-er klok  -  kene  ki-
e|--------0----|--------3----|--------3----|--------0----|--------1----|
B|--------1----|--------0----|--------0----|--------1----|--------1----|
G|-----0-----0-|-----0-----0-|-----0-----0-|-----0-----0-|-----2-----2-|
D|-------------|-------------|-------------|-------------|--3----------|
A|--3----------|-------------|-------------|--3----------|-------------|
E|-------------|--3----------|--3----------|-------------|-------------|

    G             C             F             G             C
            me                nå rin-ges ju    -   len inn
e|--------3----|--------0----|--------1----|--------3----|--------0----|
B|--------0----|--------1----|--------1----|--------0----|--------1----|
G|-----0-----0-|-----0-----0-|-----2-----2-|-----0-----0-|-----0-----0-|
D|-------------|-------------|--3----------|-------------|-------------|
A|-------------|--3----------|-------------|-------------|--3----------|
E|--3----------|-------------|-------------|--3----------|-------------|

           REF.   F            C              E            Am
                 Englene  syn    -  ger høyt        i kor    
e|--------0----|--------1----|--------0----|--------0----|--------0----|
B|--------1----|--------1----|--------1----|--------0----|--------1----|
G|-----0-----0-|-----2-----2-|-----0-----0-|-----1-----1-|-----2-----2-|
D|-------------|--3----------|-------------|-------------|-------------|
A|--3----------|-------------|--3----------|-------------|--0----------|
E|-------------|-------------|-------------|--0----------|-------------|

    F             C             G                           F 
   synger om fred   på vår      jord                      verden var al-
e|--------1----|--------0----|--------3----|--------3----|--------1----|
B|--------1----|--------1----|--------0----|--------0----|--------1----|
G|-----2-----2-|-----0-----0-|-----0-----0-|-----0-----0-|-----2-----2-|
D|--3----------|-------------|-------------|-------------|--3----------|
A|-------------|--3----------|-------------|-------------|-------------|
E|-------------|-------------|--3----------|--3----------|-------------|

    C            E             Am             F             G 
     -  dri helt       forlatt       en stje-      rne skin-  ner i
e|--------0----|--------0----|--------0----|--------1----|--------3----|
B|--------1----|--------0----|--------1----|--------1----|--------0----|
G|-----0-----0-|-----1-----1-|-----2-----2-|-----2-----2-|-----0-----0-|
D|-------------|-------------|-------------|--3----------|-------------|
A|--3----------|-------------|--0----------|-------------|-------------|
E|-------------|--0----------|-------------|-------------|--3----------|

    F             C
    natt
e|--------1----|--------0----|-------------|-------------|-------------|
B|--------1----|--------1----|-------------|-------------|-------------|
G|-----2-----2-|-----0-----0-|-------------|-------------|-------------|
D|--3----------|-------------|-------------|-------------|-------------|
A|-------------|--3----------|-------------|-------------|-------------|
E|-------------|-------------|-------------|-------------|-------------|


C         F       G  C
Nå er den hellige time.
F         C      G
Vi står i stjerneskinn
C        F         G  C
og hører klokkerne kime.
F         G      C
Nå ringes julen inn.


F       C      E      Am
Englene synger høyt i kor;
F         C           G
synger om fred på vår jord.
F          C     E         Am
Verden var aldri helt forlatt.
   F       G         F    C
En stjerne skinner i natt


En nyfødt kjærlighet sover
Nå er Guds himmel nær
Vår lange vanding er over
Stjernen har stanset her

Englene synger høyt i kor
Synger om fred på vor jord
Verden var aldri helt forlatt
En stjerne skinner i natt

Englene synger høyt i kor
Synger om fred på vor jord
Verden var aldri helt forlatt
En stjerne skinner i natt

Se himmlen ligger og hviler
På jordens gule strå
Vi står rundt krybben og smiler
For vi er fremme nå

Her kan vi drømme om den fred
Som vi skal eie en gang
For dette barn har himmlen med
Og jorden fylles med sang

Andre versjoner:

Kommentarer:

Dette feltet skal ikke fylles ut:
  • Gjest
    fan va ju bare rot
  • liker (Gjest)
    kjempe
  • Malin (Gjest)
    Versjonvabra!
  • Elin (Gjest)
    Flott versjon! Syns orginalen går for høyt, denne er mye bedre å synge med til
  • Elisabeth (Gjest)
    Liker denne versjonen veldig godt !
    Men ja, bruk capo på 2. så høres det bedre ut
  • Dan M (Gjest)
    Sett capo på 2. så er du der- Flott versjon
  • Se alle kommentarer
Lagre i egne samlinger
Vurderinger