Reodors ballade

av jonasar 28/02-2011
e|---0---5—7—8-7-5--3—0-|--------------------------------|
B|----------------------|-1-3-5—-6-5-3--1-3-5--3-1-0-----|
G|----------------------|--------------------------------|
D|----------------------|--------------------------------|
A|----------------------|--------------------------------|
E|----------------------|--------------------------------|

e|---0---5—7—8-7-5--3—0-|--------------------------------|
B|----------------------|-1-3-5--3-1-0-------------------|
G|----------------------|---------------2-1-2------------|
D|----------------------|--------------------------------|
A|----------------------|--------------------------------|
E|----------------------|--------------------------------|

e|---------5---3-1-0-------|---------0-1-0---------------|
B|--------------------1----|--0-1-3---------3-1~~--------|
G|----2------------------2-|-----------------------------|
D|-------------------------|-----------------------------|
A|-------------------------|-----------------------------|
E|-------------------------|-----------------------------|

e|---------5---3-1-0-------|---------0-1-0-----0~~-------|
B|--------------------1----|--0-1-3---------3------------|
G|----2------------------2-|-----------------------------|
D|-------------------------|-----------------------------|
A|-------------------------|-----------------------------|
E|-------------------------|-----------------------------|

e|---0---5—7—8-7-5--3—0-|--------------------------------|
B|----------------------|-1-3-5—-6-5-3--1-3-5--3-1-0-----|
G|----------------------|--------------------------------|
D|----------------------|--------------------------------|
A|----------------------|--------------------------------|
E|----------------------|--------------------------------|

e|---0---5—7—8-7-5--3—0-|----------------5--4---5~~------|
B|----------------------|-1-3-5--3-1-0-------------------|
G|----------------------|--------------------------------|
D|----------------------|--------------------------------|
A|----------------------|--------------------------------|
E|----------------------|--------------------------------|

Andre versjoner:

Kommentarer:

Dette feltet skal ikke fylles ut:
  • Gjest
    kjempebra jeg nå vet hvordan å spille denne sangen nå det er helt topp
  • Eivind (Gjest)
    Wow, kjempe kult!
  • Geir (Gjest)
    Takk, meget bra notert ned hvordan ska kunne spille den fra en som ikke helt kan å spille
  • Gjest
    kjempe bra digger den
  • Kul gutt 10 (Gjest)
    Nice bra sang digger den
  • Aron (Gjest)
    bra! beste tabs for sangen eg har spilt!
  • Se alle kommentarer
Lagre i egne samlinger
Vurderinger