Deilig er jorden

av Machomannen 04/11-2011
Et klassisk arrangement for Deilig er jorden. Relativt enkel tab, med et par variasjoner. Bare å spørre hvis det er noe som er uklart.



e|--------------------------------0--0--0--0------1-------0---------------|
B|--1--0--1--1-----3--0--1--------1--1--1--1------1---3---1---------------|
G|--------2--0-----2--0--0--------0--0--0--0------2---4---0---------------|
D|-----------------3-----2--0-------------------------5-------0-----------|
A|--------------------------------3--2--0-----------------3---------------|
E|-----------------------------------------3------1---3-------------------|


e|--3-----8--5-----3-----1----0---1----0----------------------------------|
B|--1-----8--------1-----1----1------0-1----------------------------------|
G|-----------5-----------2----0---2---------------------------------------|
D|--2--------3-----2-------------------2--4-------------------------------|
A|-----3--7----------------0--3-------------------------------------------|
E|--------------------0--1------------------------------------------------|


e|--------------3-----5--3---3--0--1------1-----3--1----------------------|
B|--3--0--0-----1-----5------3--------1---0-------------------------------|
G|--5---2-0---------------------------2---0-------------------------------|
D|--5-------3---2--0---------0--------------------------------------------|
A|--------------------4--0------------3---2-----0--2----------------------|
E|-------------------------------------------3----------------------------|


e|--1-----0--0---0--0----3--1----0-------------------------------------|
B|-----3--1--0-------------------1--3--0--1----------------------------|
G|--0------------2--0------------0--5-----0----------------------------|
D|--------------------3--2--3-------5--3--2----------------------------|
A|--3-------------------------------------3----------------------------|
E|----------------------------------3----------------------------------|

Andre versjoner:

Kommentarer:

Dette feltet skal ikke fylles ut:
  • Jokki
    Skal spille en egen variasjon av dette arrangementet. Låter veldig fint, takk
  • littvanskelig (Gjest)
    l
  • Solveig (Gjest)
    Litt vanskelig men den var veldig fin, når man får den til [img]
    [/img]    
        
  • Elias (Gjest)
    helt enig
  • Elias (Gjest)
    enig Erlen
  • Erlend (Gjest)
    Rett og slett dritfin, men nokså vanskelig :|
  • Se alle kommentarer
Lagre i egne samlinger
Vurderinger