-------------------------------------------------------------------------------
			     October - Jonas Alaska
-------------------------------------------------------------------------------
Tabbed by: Jonas Gutvik Korssjøen
Email: jonasgutvik@gmail.com

This is my version of the song, inspired by his live performance on a TV2 show 'Senkveld med Thomas og Harald'.
I think most of it is pretty accurate, at least from what I can hear.

Jonas Alaska plays it with capo on the 7th fret on the show mentioned above, but the studio version is played on the 5th fret.
Just pick the one that suits you :)

Tuning: Standard - [E,A,D,G,B,e]

Capo: 5th or 7th

************************************

| h   hammer-on

************************************

e|------------------------------------------------|
B|-------1-0---------------------1-0--------------|
G|-------------------2-0---------------------2-0--|  (Part A)  
D|----0-----------0-----------0-----------0-------|
A|------------------------------------------------|  Intro and chorus
E|-3-----3-----3-----2-----3-----3-----3-----2----|

e|----------------------------------------------|
B|-------1-0---------------------1-0------------|
G|-------------------2-0------------------------|  (Part B)
D|----0-----------0-----------0---------0-----0-|
A|-----------------------------------0-----2----|  Intro and chorus
E|-3-----3-----3-----2-----3-----3--------------|

e|------------------------------------------------|
B|----------1-----------------0-----------1-------|
G|----0-----------------0-----------0-----------0-|  (Part C)
D|----------------2-------------------------------|
A|-3-----------3-----3-----------------3-----3----|  Verse
E|-------3-----------------0-----0----------------|

e|----------------------------------------------|
B|-------1-0---------------------1-0------------|
G|-------------------2-0------------------------|  (Part B)
D|----0-----------0-----------0---------0-----0-|
A|-----------------------------------0-----2----|  Interlude
E|-3-----3-----3-----2-----3-----3--------------|

e|------------------------------------------------------------------------|
B|----------1-----------------------0-----------------------1-------------|
G|----0-----------------0-----0-----------------0-----0-----------------0-|  (Part D)
D|----------------2-----------------------2-----------------------2-------|
A|-3-----------3-----3-----------------------------3-----------3-----3----|  Verse
E|-------3-----------------0-----0-----0-----0-----------3----------------|

e|------------------------------------------------|
B|-------1-0---------------------1-0--------------|
G|-------------------2-0------------------0-------|  (Part E)
D|----0-----------0-----------0-----------------0-|
A|------------------------------------------------|  Interlude
E|-3-----3-----3-----2-----3-----3-----3-----3----|

e|----1-----------------------------------------------2----------------------------2-------------|
B|----------3-----------0-----1-----------1-----------------1-----------0h1--------------1-----0-|
G|----------------2-----------------2-----------0-----------------2----------2-------------------|  (Part F)
D|-0-----0-----0-----0-----------------------------0-----0-----0-----0----------0-----0-----0----|
A|-------------------------0-----0-----0-----0---------------------------------------------------|  Verse/chorus
E|-----------------------------------------------------------------------------------------------|

e|----------0-------------------------------------------------------------------------------------|
B|----0-----------------0-----3-----------------------1-----------------------------1-------------|  
G|----------------0-----------------4-----------0-----------------0-----------0-----------0-------|  (Part G)
D|----------------------------------------4-----------------3-----------2-----------------------0-|
A|-------------------------2-----2-----2-----2-----3-----3-----3-----3-----3-----3-----3-----3----|  Verse/chorus
E|-0-----0-----0-----0----------------------------------------------------------------------------|


This is the main loop of a verse and a chorus. Just start from the top again to continue the song.
When last verse is finished with Part G, go to the following part (Part H).

                                                                                                     ^
e|---------------------------------------------------------------------------------------------------3----|
B|-------1-0---------------------1-0---------------------1-0---------------------------1-------------0----|
G|-------------------2-0---------------------2-0---------------------2-0-----------0-------0---------0----| (Part H)  
D|----0-----------0-----------0-----------0-----------0-----------0------------2---------------2-----0----|
A|---------------------------------------------------------------------------------------------------2----| 
E|-3-----3-----3-----2-----3-----3-----3-----2-----3-----3-----3-----2-----3-------------------------3----|


That's the end of it, hope you enjoy!

Andre versjoner:

Kommentarer:

Dette feltet skal ikke fylles ut:
  • Aleks (Gjest)
    Helt konge! Takker og bukker
  • øyvind (Gjest)
    Fantastisk!! Tusen takk
  • mronneseth
    Strålende tab
  • akaDAHL
    5 stjerner. Setter stor pris på dette.
Lagre i egne samlinger
Vurderinger