Jul i svingen

av Machomannen 21/11-2012
Introen til sangen Jul i svingen fra NRKs fjernsynskalender Jul i Svingen. Jeg har
kanskje ikke fått med alle hammer-ons og slides, men dette er en intro med uhyre mange
detaljer og man må spille den på det nivået man selv klarer. Jeg syns sangen er
flott julesang og den får meg i skikkelig julestemning.

Introen kan spilles gjennom hele sangen. Det er mulig jeg kommer til å finne akkordene
til sangen. Det er også mulig jeg har slurvet litt, men det skal jeg i så fall fikse
etter hvert. Kom gjerne med en tilbakemelding! La julestemningen komme!

h = hammer-on
/ = slide


e|-----5---5---4h5---7---5---2---0-------------------------------------|
B|----------------------------------3---3---2ph3---5---3---0-----------|
G|-------------------------------------------------------------2-------|
D|---------------------------------------------------------------------|
A|---------------------------------------------------------------------|
E|---------------------------------------------------------------------|

e|---------------------------------------------------------------------|
B|--2---3---5---7---9--9h10---7---5------------------------------------|
G|---------------------------------------------------------------------|
D|---------------------------------------------------------------------|
A|---------------------------------------------------------------------|
E|---------------------------------------------------------------------|

e|---------------------------------------------------------------------|
B|--9h10---10---9---10---12---10----7--7/9-----------------------------|
G|---------------------------------------------------------------------|
D|---------------------------------------------------------------------|
A|---------------------------------------------------------------------|
E|---------------------------------------------------------------------|

e|---------------------------------------------------------------------|
B|--7---9---9h10---9----10---12---10---7h9---5-------------------------|
G|---------------------------------------------------------------------|
D|---------------------------------------------------------------------|
A|---------------------------------------------------------------------|
E|---------------------------------------------------------------------|

e|---------------------------------------------------------------------|
B|--5---7---9---9h10---------------------------------------------------|
G|----------------------9---7---6---4---2------------------------------|
D|---------------------------------------------------------------------|
A|---------------------------------------------------------------------|
E|---------------------------------------------------------------------|

e|---------------------------------------------------------------------|
B|---10---10---9---7---5---2----3----2----0----------------------------|
G|--------------------------------------------2------------------------|
D|---------------------------------------------------------------------|
A|---------------------------------------------------------------------|
E|---------------------------------------------------------------------|

e|---------------------------------------------------------------------|
B|---------------------------------------------------------------------|
G|--2----2/4----1----1p2-----------------------------------------------|
D|---------------------------------------------------------------------|
A|---------------------------------------------------------------------|
E|---------------------------------------------------------------------|

Kommentarer:

Dette feltet skal ikke fylles ut:
  • David (Gjest)
    Veldig bra
  • Yes (Gjest)
    Amazeballs
  • Gjest
    Hvis man skal spille sangen med Capo på 2bånd. (som orginalen) Så funker denne fint.

    Intro 4X
    e|--------3-|--3--3—-2h3--5--3--0----|----------------------------------|
    B|-----3----|----------------------------3-|--1--1-—0ph1--3--1---------|
    G|---0------|-------------------------------|---------------------------2--0--|
    D|----------|-------------------------------|----------------------------------|
    A|----------|--------------------------------|----------------------------------|
    E|----------|-------------------------------|-----------------------------------|

    e|-----------0--2--2h3--0-----|--2h3--3--2--3--5--3--0--0/2-|
    B|--0--1--3----------------3---|------------------------------------|
    G|-------------------------------|------------------------------------|
    D|-------------------------------|------------------------------------|
    A|-------------------------------|------------------------------------|
    E|-------------------------------|------------------------------------|

    e|-0--2--2h3--3--2--3--5--3--0-------|-----0--2--2h3--------------------|
    B|----------------------------------------3-|--3---------------3--1--0---------|
    G|------------------------------------------|-------------------------------2--0-|
    D|------------------------------------------|-------------------------------------|
    A|------------------------------------------|-------------------------------------|
    E|------------------------------------------|-------------------------------------|

    e|-3--3--2--0----------------------------------------------|
    B|---------------3--0--1--0--------------------------------|
    G|-----------------------------2--0--0—-0/2-------------|
    D|-------------------------------------------------4--4p5--|
    A|------------------------------------------------------------|
    E|------------------------------------------------------------|
    Enda mer korrekt
  • Gest (Gjest)
    Første 0 er feil. Skal være på G strengen og ikke D strengen
  • Gjest (Gjest)
    Hvis man skal spille sangen med Capo på 2bånd. (som orginalen) Så funker denne fint.

    Intro 4X
    e|--------3-|--3--3—-2h3--5--3--0----|----------------------------------|
    B|-----3----|----------------------------3-|--1--1-—0ph1--3--1---------|
    G|----------|-------------------------------|---------------------------2--0--|
    D|--0-------|-------------------------------|----------------------------------|
    A|----------|--------------------------------|----------------------------------|
    E|----------|-------------------------------|-----------------------------------|

    e|-----------0--2--2h3--0-----|--2h3--3--2--3--5--3--0--0/2-|
    B|--0--1--3----------------3---|------------------------------------|
    G|-------------------------------|------------------------------------|
    D|-------------------------------|------------------------------------|
    A|-------------------------------|------------------------------------|
    E|-------------------------------|------------------------------------|

    e|-0--2--2h3--3--2--3--5--3--0h2----|-----0--2--2h3--------------------|
    B|----------------------------------------3-|--3---------------3--1--0---------|
    G|------------------------------------------|-------------------------------2--0-|
    D|------------------------------------------|-------------------------------------|
    A|------------------------------------------|-------------------------------------|
    E|------------------------------------------|-------------------------------------|

    e|-3--3--2--0----------------------------------------------|
    B|---------------3--0--1--0--------------------------------|
    G|-----------------------------2--0--0—-0/2-------------|
    D|-------------------------------------------------4--4p5--|
    A|------------------------------------------------------------|
    E|------------------------------------------------------------|
  • Gjest (Gjest)
    Hei! Denne er utrolig bra, men jeg har funnet ut hvordan forspille spilles:
    e ——————0———5——————————
    B ————————————————————
    G——2—————————————————
    D————————————————————
    A————————————————————
    F————————————————————
    Dette spilles 4 ganger før sangen starter
  • Se alle kommentarer
Lagre i egne samlinger
Vurderinger