Julekveldsvisa

av Anonym 21/12-2012
E------2-2-2-3-2-2-0---0-----------------------
B--------------------3---3-0-------------------
G---2------------------------2-----------------
D----------------------------------------------
A----------------------------------------------
E----------------------------------------------


E-----------------3--2-0-0-0-2-0---------------
B---------0-2-3-3------------------------------
G---2-2-2--------------------------------------
D----------------------------------------------
A----------------------------------------------
E----------------------------------------------


E------2-2-2-3-2-2-0---0-----------------------
B--------------------3---3-0-------------------
G---2------------------------2-----------------
D----------------------------------------------
A----------------------------------------------
E----------------------------------------------


E-----------------3-2-0------------------------
B-----0-0-2-0-----------0-2---3----------------
G---2---------2-2-----------2------------------
D----------------------------------------------
A----------------------------------------------
E----------------------------------------------

  X6

Andre versjoner:

Kommentarer:

Dette feltet skal ikke fylles ut:
  • 1/2 (Gjest)
    Dette er heller mangelfullt til fingerspill å ver
    Det er dåg et godt utgangspunkt til en fingerspill versjon
    Og vakker melodi
  • Sauen XD (Gjest)
    den er så fin
  • Guitardude
    spiller den hele tiden
  • Gjest
    denne var veldig bra
    hadde verdt fint med forspillet å
  • sigurd (Gjest)
  • Guitardude
    bra
Lagre i egne samlinger
Vurderinger