Dagens helt

av jollemkay 29/08-2014
Vinskvetten - Dagens Helt

TIPS: Lytt til sangen mens du spiller. 

Intro(og vers): 

|-3--------3-----|-7--------7-----|-2--------2-----|
|------0-------0-|------0-------0-|------0-------0-|
|----0-------0---|----0-------0---|----0-------0---|
|-2------2-------|-5------5-------|-0------0-------|
|----------------|----------------|----------------|
|----------------|----------------|----------------|

|----------------|-0--------0-----|-2--------2-----|
|-1--------1-----|------0-------0-|------0-------0-|
|------0-------0-|----0-------0---|----0-------0---|
|----0-------0---|----------------|-0------0-------|
|-0------0-------|-3------3-------|----------------|
|----------------|----------------|----------------|

|-3--------3-----|-2--------2-----|
|------0-------0-|------0-------0-|
|----0-------0---|----0-------0---|
|-2------2-------|-0------0-------|
|----------------|----------------|
|----------------|----------------|


Overgang + Refreng: 

C     Cmaj7

Em          
Dagens dåd, 
Em
Kvardags Helt 
G           D
Innsats og moohohoot!
Am        C             G        D
Uredd og gjerv satt han livet på spel
Em          Em      G      D
Han får no dyrenes nål i emalje
Am      C        G           D
Nål i emalje for innsats og mot
(((Am       Am       C)))
(((Dagens helt, dagens helt, dagens helt.)))

Kommentarer:

Dette feltet skal ikke fylles ut:
  • Otto (Gjest)
    Uredd og djerv satt han livet på spel! ????
  • Pelle (Gjest)
    Han får no dyrenes nål i emalje.
  • Vinskvetten fan (Gjest)
    Nydelig!
Lagre i egne samlinger