DDE - Ka e det du vil


Intro:
E|-----3--------------------3-----------------------------------------|
B|--------3--------------------3--------------7--------8--------7-----|
G|--5--------5--4--5--4-----------4--------7-----7--------7--------7--|
D|--5--------------------5--------------7-----------------------------|
A|-----------------------------------5--------------5--------5--------|
E|--------------------------------------------------------------------|x2


E|--------------------------------------------------------------------|
B|--5----4------------7---10---------------7--------------------------|
G|--5----4------------7---10---------------7--------------------------|
D|--5----4------------7---10---------------7--------------------------|
A|--3----2------------5---8----------------5--------------------------|
E|-----------0--1--0--------------------------------------------------|x1

e|----------------------------------------------------------------------
B|--8--8--8--8--7--7--7--8--8--8--8--7--7--7--8--8--8--8--7--8--8--8--8-7
G|--7--7--7--7--7--7--7--7--7--7--7--7--7--7--7--7--7--7--7--7--7--7--7-7
D|--7--7--7--7--7--7--7--7--7--7--7--7--7--7--7--7--7--7--7--7--7--7--7-7
A|-----------------------------------------------------------------------
E|-----------------------------------------------------------------------

e|---------------------------------------------------------------------|
B|--8--8--8--8--7--7--7--8--8--7-----------7--8--7--8--10--------------|
G|--7--7--7--7--7--7--7--7--7--7--2--2--2--7--7--7--7--9---------------|
D|--7--7--7--7--7--7--7--7--7--7--2--2--2--7--7--7--7--11--------------|
A|-----------------------------0--0--0---------------------------------|
E|---------------------------------------------------------------------|

Hoved riff:

e|----------------------------------------------------------------------
B|--8--8--8--8--7--7--7--8--8--8--8--7--7--7--8--8--8--8--7--8--8--8--8-7
G|--7--7--7--7--7--7--7--7--7--7--7--7--7--7--7--7--7--7--7--7--7--7--7-7
D|--7--7--7--7--7--7--7--7--7--7--7--7--7--7--7--7--7--7--7--7--7--7--7-7
A|-----------------------------------------------------------------------
E|-----------------------------------------------------------------------

e|---------------------------------------------------------------------|
B|--8--8--8--8--7--7--7--8--8--7-----------7--8--7--8--10--------------|
G|--7--7--7--7--7--7--7--7--7--7--2--2--2--7--7--7--7--9---------------|
D|--7--7--7--7--7--7--7--7--7--7--2--2--2--7--7--7--7--11--------------|
A|-----------------------------0--0--0---------------------------------|
E|---------------------------------------------------------------------|

Ref:
      D
Ka e det du vil
      D
Ka e det du gjør

Ka e det du prøve på
    D
Æ fatte itj at du tør
      A
Ka e det du trur
             A
Ka e det du veit
             D
Ka e det du vil
     D
E det kjærligheit.


Æ var på bar
Æ var på fest
Æ møtt dæ samma kor
æ sjøl var bedt som gjest
Du ga mæ et smil
Du ga mæ en dans
Du ga mæ et blikk som sa
at muligheitan fans

D[F]u se[C]i at e det seint
    Dm
mørkt, og du har lang vei heim
    F
Du sei du har alltid vært
re[C]dd fo[H]r å gå[E] a[A]lein


Det e det det e
Det e dt vi gjør
Det e du og æ som danse
tættar enn vi bør
Ka e det du trur
Ka e det du veit
Ka e det du vil
E det kjærligheit

Andre versjoner:

Kommentarer:

Dette feltet skal ikke fylles ut:
Lagre i egne samlinger
Vurderinger