En Stjerne Skinner I Natt

av Machomannen 05/12-2009
En stjerne skinner i natt - Oslo Gospel Choir.
Hvis du vil spille fingerspill er det bare
å bruke grepene som står her.
Her er et eksempel på hvordan man kan gjøre det:

   [D]Nå er den hel  [G]-  li ge ti   [A] -      me[D]
e|--------2----|--------3----|--------3----|--------2----|
B|--------3----|--------3----|--------0----|--------3----|
G|------2----2-|-----------0-|-----------3-|-----2-----2-|
D|----0--------|-----0-------|-----3-------|---0---------|
A|-------------|-------------|--0----------|-------------|
E|-------------|--3----------|-------------|-------------|



Merk: Introen er ikke tabbet av meg, men av sveiniz.
(Link til hans profil: http://nortabs.net/user/2184/ )


Intro:
e-------9-10---------9-10-------9-10---------------------------
B---12--------10-----------8----------10-----------------------
G--------------------------------------------4s6--7--7--6--7---
D--------------------------------------------------------------
A--------------------------------------------------------------
E--------------------------------------------------------------

[D]Nå er den [G]hellige [A]time[D]
[G]vi står i [D]stjerneski[A]nn
[D]og hører [G]klokkene [A]kime[D]
[G]nå ringes [A]julen [D]inn

ref.
[G]Englene [D]synger [F#]høyt i[Hm] kor
[G]synger om [D]fred på vår [E]jo[A]rd
[G]verden var [D]aldri [F#]helt [Hm]forlatt
[G]en [D]stjerne [A]skinner i [D]natt


[D]En nyfødt [G]kjærlighet [A]sover[D]
[G]nå er guds[D] himmel [A]nær
[D]vår lange [G]vandring [A]er ove[D]r
[G]stjernen har[A] stanset [D]her


[G]Englene [D]synger [F#]høyt i[Hm] kor
[G]synger om [D]fred på vår [E]jo[A]rd
[G]verden var [D]aldri [F#]helt [Hm]forlatt
[G]en [D]stjerne s[A]kinner i n[D]att


[E]Se himlen [A]ligger og h[H7]vile[E]r
[A]på jordens g[E]ule [H7]strå.
[E]Vi står om [A]krybben og [H7]smile[E]r,
[A]for vi er [H7]fremme [E]nå!


[A]Her kan vi [E]drømme [G#]om den [C#m]fred
[A]som vi skal [E]eie [F#]enga[H]ng.
[A]For dette [E]barn har [G#]himlen [C#m]med
og j[E]orden f[H7]yldes med [A]sang.[E]

Andre versjoner:

Kommentarer:

Dette feltet skal ikke fylles ut:
  • David???? (Gjest)
    Jeg liker marja og Louise
  • Lulu (Gjest)
    Hei marja
  • Gjest
    Hallo
  • Dømmende gitarist (Gjest)
    Akkordene er greie, men hva i alle dager skjer i introen!? A-akkorden er da fryktelig gal!
    Ikke finn på å bruke denne introen, folkens!
  • alex (Gjest)
    e|--------2----|--------3----|--------3----|--------2----|
    B|--------3----|--------3----|--------0----|--------3----|
    G|------2----2-|-----------0-|-----------3-|-----2-----2-|
    D|----0--------|-----0-------|-----3-------|---0---------|
    A|-------------|-------------|--0----------|-------------|
    E|-------------|--3----------|-------------|-------------|
    hvad betyder dete ?
  • Guitardude
    hm
  • Se alle kommentarer
Lagre i egne samlinger
Vurderinger